Make your own free website on Tripod.com
Shay'z Creed Prison

Home

Creed Bio
Scott Stapp
Scott Phillips
Mark Tremonti
WAWO
Creed FAQ
Quotez
News and Gossip
Creed Newsletter
Discography
M-O-P Lyrics
H-C Lyrics
Weathered Lyrics
Guitar Tabs
Related Links
Me & Creed
Mailbag
Contact Me
Creed Guitar Tabs

Guitar Tabs To Creed's Hit Songs

Song- Torn
Written by- Creed
Transcribed by- David Sobka & Eric DiRezze
Tuning- DADGBe



Intro.
  THREE TIMES                    | FOURTH TIME                  
e------------------------0-------|------------------------------
B-----------6--------------6-----|----------6-6-6-6-6\8-8-8-8---
G-----7p5---------7p5--------5---|----7p5---5-5-5-5-5\7-7-7-7---
D--0------0-----0------0---------|--0-----0-0---0---------0-0---
A--------------------------------|------------------------0-0---
D--------------------------------|------------------------------


Verse  2x
  THREE TIMES                  | FOURTH TIME
e----------------------0-------|-----------------------------
B----------6-6-----------6-----|-----------6--6-6-6/8--8-8-8-
G----7p5---5-5---7p5-------5---|----7p5----5--5-5-5/7--7-7-7-
D--0-----0-----0-----0---------|--0-----0--0-------------0-0-
A------------------------------|-------------------------0-0-
D------------------------------|-----------------------------


Pre-Chorus
  TWO TIMES
e--------------------------------------------------------
B--------------------------------------------------------
G-5--5--5-5--5-5--5-5-x-5--5-5--5-xxxx-5-----------------
D-3--3--3-3--3-3--5-5-0-5--5-5--5-0000-3--0-00-3p0--0-0--
A-3--3--3-3--3-3--3-3-0-3--3-3--3-0000-3--0-00-3p0--0-0--
D-3--3--3-3--3-3--3-3-0-----------0000-3--0-00-3p0--0-0--


e------------------------------------------------
B------------------------------------------------
G------------------------------------------------
D---------------0-00-3p0--0-0--------------------
A--3-4-5-0-3-4--0-00-3p0--0-0--3-4-5-0-5-4-3-0---
D---------------0-00-3p0--0-0--------------------


Chorus
e------------------------------------------------------------
B------------------------------------------------------------
G--5--5-5-5-x-5-5-5-5---7--7-7-7-x-7-7--7--7-7---10---10-10--
D--3--3-3-3-x-5-5-5-5-0-5--5-5-5-x-7-7--7--7-7-0--8----8--8--
A--3--3-3-3-x-3-3-3-3-0-5--5-5-5-x-5-5--5--5-5-0--8----8--8--
D--3--3-3-3-----------0-5--5-5-5---------------0--8----8--8--







e-----------------------------------------
B-----------------------------------------
G--10-10-x-10--10-10-10-10---9--9-9-9-----
D---8--8-x-10--10-10-10-10---7--7-7-7-----
A---8--8-x--8---8--8--8--8-0-7--7-7-7--0--
D---8--8-------------------0-7--7-7-7--0--


e-------------------|---------|--------------|----------|
B-------------------|---------|--------------|----------|
G-------------------|--Verse--|--Pre-Chorus--|--Chorus--|
D--7\5--------------|---2x----|--------------|----------|
A------7-5\3--------|---------|--------------|----------|
D------------3--5b--|---------|--------------|----------|


Interlude
e-----------------------------------------------------------
B-----------------------------------------------------------
G-----------------------------------------------------------
D-----------------------------------------------------------
A------------------------6-6-----6-6-------------4--5-4-----
D--0-0-10-10-9-9-0-0-6-7-----0-0-----7-7-0-0-4-5--------5-0-


(End w/ 1st Time)
e--------------------------------------------------------------
B--------------------------------------------------------------
G--------------------------------------------------------------
D--------3-3-3------------3-3-3-3-0----------2-2-2-------------
A--------------------------------------------------------------
D-3-3-3-3------3---3-3-3-3------------2-2-2-2------2---2-2-2-2-


             | Riff A (End Interlude w/ 2nd Time)
e------------|-----------------------------------------|
B------------|-----------------------------------------|
G------------|-5--5-5-5------------4--4-4-4------------|
D-2-2-2-2-0--|-3--3-3-3------------2--2-2-2------------|
A------------|-3--3-3-3--33-0-3-5--2--2-2-2--22-0-2-3--|
D------------|-3--3-3-3--33-0-3-5--2--2-2-2--22-0-2-3--|


THREE TIMES
e------------------------------------------------------|
B------------------------------------------------------|
G--------------(8)---(8)----------(7 7)-7------End-W/--|
D---------------8-----8----------6-7(0)-5------Riff-A--|
A--0-10-9-0-6-7-6-0-0-6-7-0--4-5-4-5-0--5-0------------|
D--0-10-9-0-6-7---0-0---7-0--4-5---0-0--5-0------------|







Verse 2x

TWO TIMES  (...her peace is dead...)
Strum softly
e-------------------------------------------|
B-------------------------------------------|
G--5---5-/-7---7---10---10---9---7---7------|
D--3---5---5---7----8----8---7---0---5---0--|
A--3---3---5---5----8----8---7---0---5---0--|
D--3-------5--------8--------7---0---5---0--|


Outro.
Fade and repeat 
e-------------------------0--------0------
B-----------6---------------6--------6----
G-----7p5----------7p5--------5--------5--
D--0------0------0------0-------0---------
A-----------------------------------------
D-----------------------------------------



KEY: P = pull off
      X = muffle string(s)
      \ = slide
 
 
 
 
 
 
 
 
 
 
 
Song- My Own Prison 
Written by- Creed 
Transcribed by- David Sobka & Eric DiRezze 
Tuning- DADGBe 
 
 
 
 Intro. 
e----------------------------------------------------- 
B-----------------------------------6----------------- 
G---------2-----------0----------5--5----------------- 
D-----0---0-------0h3---3--------3--3-(3)-------------- 
A-----0---0---0h1---------0--3---3--3-(3)-3h5-3-------- 
D--0-------------------------3---3--3-----------5-3--- 
 
 
 Verse 
e------------------------------------------------------- 
B----(3)---------------------------6-------------------- 
G-----2---2-----------0---------5--5-------------------- 
D-----0---0-------0h3---3----3--3--3(3)-------------0--- 
A-----0---0---0h1---------0--3--3--3(3)-3h5-3----------- 
D--0--0----------------------3--3--3-----------5-3------ 
 
 
 Chorus  2x              | (@ 1:13 Only) 
e------------------------|-------------- 
B--6-----5-----4-----2---|--/5----/6---- 
G--5-----4-----3-----3---|--/4----/5---- 
D--3-----2-----1-----0-------0-----0---- 
A--3-----2-----1-----0-------0-----0---- 
D--3-----2-----1-----0-------0-----0---- 
 
 
 Verse II 
e------------------------------------ 
B-(3)-------------------------------- 
G--2-----3------5-------------------- 
D--0-----3------3-----------------0-- 
A--0-----1--0-0-3--(0)--3h5-3-------- 
D--0-----x--0-0-3--(0)--------5-3---- 
 
 
 Solo 
e----------------------------------------------------------------| 
B----------------------------------------------------------------| 
G----------10--10----------10-10------------10--10----10~ --(10)-| 
D-7v----7h8-------7v----7h8------8--7----7h8--------8------------| 
A-----0---------------0----------------0-------------------------| 
D----------------------------------------------------------------| 
 
 
 
 
 
 
 
 
(@ approx. 03:09) 
 Guitar 1 cont. w/ distortion 
e------------------------------------------------------------- 
B------------------------------------------------------------- 
G------10--10---10~ ------10-10-----------------10-10---10~ -- 
D--7h8--------8-------7h8-------8-7v-(7)----7h8-------8------- 
A------------------------------------------------------------- 
D------------------------------------------------------------- 
 
 
e-------------------------------------------------------------- 
B-------------------------------------------------------------- 
G------10--10---------------------10-10---10~ -----10-10------- 
D--7h8--------8-8p7--7-7-(7)--7h8-------8------7h8-------8-7~ - 
A-------------------------------------------------------------- 
D-------------------------------------------------------------- 
 
 
e----------------------------------------------------------------- 
B----------------------------------------------------------------- 
G-----10-10---10~ -----10-10--10----10----10----10----10---------- 
D-7h8-------8------7h8-------8---8-7---8-7---8-7---8-7---8-7--/7v~ 
A----------------------------------------------------------------- 
D----------------------------------------------------------------- 
 
 Chorus Out 
 
 
 Guitar 2 @ 03:10 plays                  KEY: h = hammer 
 Verse riff                                   / = slide 
e-------------------------                    v = vibrate string 
B-------------------------                    ~ = hold 
G--5-----5----2-----3-----                    x = muffle string(s) 
D--3-----5----0-----3----- 
A--3-----3----0-----1----- 
D--3-----x----0-----x----- 
 
 
 
 
 
 
 
 
Song- Intro To "What's This Life For"
Written by- Creed
Transcribed by- Waldon Reed
Tuning- EADGBe



Play 4x
e------------------------0---------------------
B--0h1-----1p0---0-----0---0---3-1-1p0---------
G------0-------2---2-0-------0---------2p0-----
D-------0--------------------------------------
A--------------2-----3---------3---------------
E--3-------------------------------------------

        Play 2x
e--0--|------------------------------------------------------
B--0--|--0h1p0-------0-0h1-----1-------1-0-3-1-0-------0-----
G-----|--------2---2-------0---------0-----------0h3p0---2---
D-----|----------2-----------0---0h2-------------------------
A--0--|----------------3-------------------------------------
E-----|----------------------------------3-------------------


e-----------|------------------
B-----3-0---|--0----0--0-------
G--0--------|------------------
D-----------|------------------
A-----------|--3/5--3--3-2-0---
E--1--------|------------------

Play
e--0--------------0--------------
B----0--------------0------------
G------5-7-7\10-9-----9-9-7--5---
D--------------------------------
A--------0-0----0-----0-0-0--0---
E--------------------------------

End with
e---0-----------0-----0-------
B-----0-----------0-----0-----
G-------5-5-4-2-----2-----2---
D-----------------------------
A-------0-0-0-0---------------
E-----------------------------


1st time only
e--3----3--|--0-------2-2h3p2---------------2--2-------3-------
B--3----3--|--------3---------3-------------2--2---------3-----
G--0----0--|------2-------------0--------4--4--4-----5-----5---
D--0----0--|----0----------------------4----4--4---5---------0-
A--2----2--|------------------------2------------3-------------
E--3-------|---------------------------------------------------


Verse
e--------3---0-------2-2h3p2---------------2---2-------3-------
B--------3---------3---------3----------4--2---2---------3-----
G--------0-------2-------------0------4----4---4-----5-----5---
D------0-------0-------------------2-------4---4---5---------0-
A----2-------------------------------------------3-------------
E--3-----------------------------------------------------------


Chorus
e--------------------------
B--------------------------
G--4-----5-----4-----5-----
D--5-----5-----4-----5-----
A--5-----7-----2-----3-----
E--3-----x-----x-----x-----


End Verse
e-3---3-3--3--3--3-3-3-3--3-3-3---3--3-3--3--3--3-3-3-3-3-3-3-
B-3---3-3--3--3--3-3-3-3--3-3-3---3--3-3--3--3--3-3-3-3-3-3-3-
G-0---0-0--0--0--0-0-0-0--0-0-0---0--0-0--0--0--0-0-0-0-0-0-0-
D-0---0-0--0--0--0-0-0-0--0-0-0---0--0-0--0--0--0-0-0-0-0-0-0-
A-2---2-2--2--2--2-2-2-2--2-2-2---2--2-2--2--2--2-2-2-2-2-2-2-
E-3---3-3--3--3--3-3-3-3--3-3-3---3--3-3--3--3--3-3-3-3-3-3-3-


e-0--0-0-0-0--0--0-0-0-0-0-0-0-0-0-0-0-0-0--0-0-0-0--2--2-2-
B-1--1-1-1-1--0--0-0-0-1p0-0-0h1-1-1-0-0-0--1-0-0-0--3--3-3-
G-0--0-0-0-2--0--0-0-0-2-2-2-2-2-2-2-2-2-2--2-2-2-2--2--2-2-
D-2--2-2-2-2--2--2-2-2-2-2-2-2-2-2-2-2-2-2--2-2-2-2--0--0-0-
A-3--3-3-3-3--3--3-3-3-3-3-3-0-0-0-0-0-0-0--0-0-0-0---------
E-----------------------------------------------------------


e-2-3--3-3-3p2-2--0--0-0-0-0-0-0-0-0-0-0-0--3--3-3-3--3--3-3-
B-3-3--3-3-3-3-3--1--1-1-1-0-0-0-0-0h1-1-1--3--3-3-3--3--3-3-
G-2-2--2-2-2-2-2--0--0-0-0-0-0-0-0-0-0-0-0--0--0-0-0--0--0-0-
D-0-0--0-0-0-0-0--2--2-2-2-2-2-2-2-2-2-2-2--0--0-0-0--0--0-0-
A-----------------3--3-3-3-3-3-3-3-3-3-3-3--2--2-2-2--2--2-2-
E-------------------------------------------3--3-3-3--3--3-3-


e-3--3-3--3-3--3-3-3-3--3-3-3--
B-3--3-3--3-3--3-3-3-3--3-3-3--
G-0--0-0--0-0--0-0-0-0--0-0-0--
D-0--0-0--0-0--0-0-0-0--0-0-0--
A-2--2-2--2-2--2-2-2-2--2-2-2--
D-3--3-3--3-3--3-3-3-3--3-3-3--



KEY: h = hammer
      P = pull off
      X = muffle string(s)
 
 
 
 
 
 
 
 
 
 
 
 
 
Song- One
Written by- Creed
Transcribed by- Waldon Reed, David Sobka & Eric DiRezze
Tuning- EADGBe


  I
e------------------------------------------------------------
B------------------------------------------------------------
G------------------------------------------------------------
D--------------------11--11-11-11--9--11/14(b)/--9--9-9-9-9--
A-**7-7-7-6-6-6h7p0---0---0--0--0--0---0---------7--7-7-7-7--
E---9-9-9-9-9-9---0-----------------------------(0)(0-0-0-0)-
(** slight palm mute)


                                      First
e-------------------------------------Time---|
B-------------------------------------Only---|
G-------------------------------------|------|
D--9-9-9-9--00-----------------------'.'-----|
A--7-7-7-7--00--9--9-9-9-9--9-9-9-9/(14)-----|
E-(0-0-0-0)-----7--7-7-7-7--7-7-7-7/(12)-----|



  II
e---------------------------------------------------
B---------------------------------------------------
G---------------------------------------------------
D---------------------11--11-11-11-9--11--11-11-11--
A-**7-7-7-6-6-6h7p0----0---0--0--0-0---0---0--0--0--
E---9-9-9-9-9-9-------------------------------------



                                                     |  I      |
e----------------------------------------------------|---------|
B----------------------------------------------------|---------|
G----------------------------------------------------|-(sings)-|
D--9--9-9-9-9---9-9-9-9--00--------------------------|-(first)-|
A--7--7-7-7-7---7-7-7-7--00--9--9-9-9-9--9-9-9-9-00--|-(verse)-|
E-(0)(0-0-0-0)-(0-0-0-0)-----7--7-7-7-7--7-7-7-7-00--|---------|



  II  |  III
e-----|---------------------------------------------------------
B-----|---------------------------------------------------------
G-----|---------------------------------------------------------
D-----|--------------------11--11-11-11--9--11--9--9--9-9-9-9---
A-----|-**7-7-7-6-6-6h7p0---0---0--0--0--0---0--0--7--7-7-7-7---
E-----|---9-9-9-9-9-9-----------------------------(0)(0-0-0-0)--





e----------------------------------------|
B----------------------------------------|
G----------------------------------------|
D---9-9-9-9--00--------------------------|
A---7-7-7-7--00--9--9-9-9-9--9-9-9-9-00--|
E--(0-0-0-0)-----7--7-7-7-7--7-7-7-7-00--|



  IV
e------------------------------------------------------------
B------------------------------------------------------------
G------------------------------------------------------------
D--------------------11--11-11-11--9-11-11-11-9--9--9-9-9-9--
A-**7-7-7-6-6-6h7p0---0---0--0--0--0--0--0--0-0--7--7-7-7-7--
E---9-9-9-9-9-9---------------------------------(0)(0-0-0-0)-



e----------------------------------------|
B----------------------------------------|
G----------------------------------------|
D---9-9-9-9--00--------------------------|
A---7-7-7-7--00--9--9-9-9-9--9-9-9-9-00--|
E--(0-0-0-0)-----7--7-7-7-7--7-7-7-7-00--|



  V  (One- oh one...)
e---------------------------------------------------------
B---------------------------------------------------------
G---------------------------------------------------------
D--------------------11--11-11-11--9--11--11-11-11/14(b)--
A-**7-7-7-6-6-6h7p0---0---0--0--0--0---0---0--0--0--------
E---9-9-9-9-9-9-------------------------------------------


                                                     |  II  |
e----------------------------------------------------|------|
B----------------------------------------------------|------|
G----------------------------------------------------|------|
D--9--9-9-9-9---9-9-9-9--00--------------------------|------|
A--7--7-7-7-7---7-7-7-7--00--9--9-9-9-9--9-9-9-9-00--|------|
E-(0)(0-0-0-0)-(0-0-0-0)-----7--7-7-7-7--7-7-7-7-00--|------|


Chorus  2x

e--------------------------
B--------------------------
G--4-----x-----6-----x-----
D--4-----4-----6-----6-----
A--2-----4-----4-----6-----
E--x-----2-----x-----4-----




  I   |  II     |  I   |  II  |  III  |  I        |  II  |
e-----|---------|------|------|-------|-----------|------|
B-----|---------|------|------|-------|--(GTR 1)--|------|
G-----|-(sings)-|------|------|-------|--(Cont.)--|------|
D-----|--(2nd)--|------|------|-------|-----------|------|
A-----|-(verse)-|------|------|-------|-----------|------|
E-----|---------|------|------|-------|-----------|------|


Repeat Chorus (4x)


(3:01 sec.)
Bridge 2x
e--------2~ ---0-------------4~ ---------------
B--------2~ -----0-----------4~ ---------------
G------4-----------3/ -----6-----------6----5--
D----4-------------------6-----------6---------
A--2-------------------4-----------6------6----
E------------2-------------------4-------------


e---------------------------------------------------------------

B-------4-------(4)-------4------5--------4------5--------------
G---------4-------(4)-------4------4--------4------4--(7)/9-----
D-**444-------------**444------4----**444------4-------x--x-----
A-----------------------------------------------------(5)/7-----
E---------------------------------------------------------------
(**slight palm mute)


e------------------------------------------------------------|
B-------4-------(4)-------4------5--------4------5-----------|
G---------4-------(4)-------4------4--------4------4---9-----|
D-**444-------------**444------4----**444------4-------x-----|
A------------------------------------------------------7-----|
E------------------------------------------------------------|


           | 6x  (fade out)
e----------|----------------------------------------------------|
B----------|----------------------------------------------------|
G--Chorus--|--4------------------------6------------------------|
D----2x----|--4------------------------6------------------------|
A----------|--2---------4-----4---4----4---------6-----6---6----|
E----------|--x-----222---222---2---2--x-----444---444---4---4--|











GUITAR 2   (distortion)

(2:01-2:02)   | (2:06-2:09)       (One- Oh one...)
e----softly----|-------------------------------------------------
B--------------|-------------------------------------------------
G------**------|----**---------------6~ --x-------**-------------
D----666666----|--9999999---**-------6~ --7~ ---9999999---**-----
A----444444----|--7777777-9999999----4~ --7~ ---7777777-9999999--
E--------------|----------7777777---------5~ -----------7777777--



  (One- Oh one...)            (2:24) ^ = Harmonic
e------------------------------------------------------------
B------------------------5^5^5^--9^--7^7^--6^--7^7^7^-7^-7^--
G---6~ --x-------**------------------------------------------
D---6~ --7~ ---9999999---------------------------------------
A---4~ --7~ ---7777777---------------------------------------
E--------5~ -------------------------------------------------



           | Pick Slides @
e----------|(2:46-2:48, 2:50-2:52)---|
B----------|(2:55-2:56, & 2:59-3:00)-|
G--Chorus--|-------------------------|
D----2x----|-------------------------|
A----------|--x-\--------------------|
E----------|--x--\-------------------|
                  \



(start at 3:01)  2x
e-----------------------------------|
B-----------------------------------|
G---4~ -----x-------6~ -----x-------|
D---4~ -----4~ -----6~ -----6~ -----|
A---2~ -----4~ -----4~ -----6~ -----|
E---x-------2~ -----x-------4~ -----|



(start at 3:19)                       |
e---------------------------|----------|
B---------------------------|----------|
G---x-----x-----x-----9-----|--Chorus--|
D---9-----9-----7-----9-----|----2x----|
A---9-----9-----7-----7-----|----------|
E---7-----6-----5-----x-----|----------|







6x (fade out)
e----------------------------------------------------|
B----------------------------------------------------|
G--4------------------------6------------------------|
D--4------------------------6------------------------|
A--2---------4-----4---4----4---------6-----6---6----|
E--x-----222---222---2---2--x-----444---444---4---4--|



KEY: h = hammer
      P = pull off
     (b)= slight bend
      x = muffle string(s)
      ~ = hold 
 
 
 
 
 
 
 
 
 
 
 
 
 
Song- With Arms Wide Open
Album- Human Clay
Written By- Creed
Transcribed By- David Sobka Jr. & Waldon Reed Jr.
Tuning- DADGBe



Finger picking
e-----------------------------------------------------------
B--0h1-------1-----1h3-----1-----0h1p0-0h1-------1-----1h3--
G------0-------0-------0-----0-------------0-------2--------
D--------2---------------2-----2-------------0--------------
A--3-------3-----3-3-------3-----------2-------2-----2-2----
D-----------------------------------------------------------


e---------------------------------------------------------
B------1-----0h1p0-0h1-------1-----0h1p0-------0-----0h1--
G--0-----0-------------0-------0---------0-------0--------
D----0-----2-------------2-----------------2-------2------
A------2-----------0-------0-----0-----------0-------0----
D---------------------------------------------------------


e----------------------------------
B--------1-----0h1p0-------0-------
G--0-------0---------0-------0-----
D----2-----------------2-------2---
A------0-----0-----------0---------
D----------------------------------


One of the verses mark plays it this way.
e-----------------------------------------------------------
B--0h1-------1-----1h3-----1-----0h1p0-0h1-------1-----1h3--
G------0-------0-------0-----0-------------0-------2--------
D--------2---------------2-----2-------------0--------------
A--3-------3-----3-3-------3-----------2-------2-----2-2----
D-----------------------------------------------------------


e-------------------------------------------------------
B------1-----0h1p0-0h1-------1-----3p1-------0-----0h1--
G--0-----0-------------0-------0-------0-------0--------
D----0-----2-------------2---------------2-------2------
A------2-----------0-------0-----0---------0-------0----
D-------------------------------------------------------


e----------------------------------
B--------1-----0h1p0-------0-------
G--0-------0---------0-------0-----
D----2-----------------2-------2---
A------0-----0-----------0---------
D----------------------------------

 
Chorus
Strum
e-----------|-----------|-----------|-----------|
B-----6-----|-----------|-----5-----|-----------|
G-----5-----|-----5-----|-----4-----|-----7-----|
D-----3-----|-----5-----|-----2-----|-----7-----|
A-----3-----|-----3-----|-----2-----|-----5-----|
D-----3-----|-----x-----|-----2-----|-----x-----|


Solo
e--------------------------------------------------------------------------
B------5-5h6-5-6-5------5-6-5-6-5------5-6/8-6-5--6-5h6p5-6-5h6p6-6-5h6p5--
G--5-7--------------5-7------------5-7-------------------------------------
D--------------------------------------------------------------------------
A--------------------------------------------------------------------------
D--------------------------------------------------------------------------


               Played over solo
               Strum
e------------|------------|------------|------------|-----------|
B--6-8br-8---|------------|------------|------------|-----------|
G------------|------------|------------|------------|-----------|
D------------|-----10-----|-----10-----|------8-----|-----7-----|
A------------|-----10-----|-----10-----|------8-----|-----7-----|
D------------|-----10-----|-----9------|------8-----|-----7-----|


Key
b = Bend
r = Release bend
h = Hammer
p = Pull off
/ = Slide  
 
 
 
 
 
 
 
 
 
 
 
Song- Higher 
Album- Human Clay 
Written By- Creed 
Transcribed By- Eric DiRezze 
Tuning- DADGBe 
 
Intro 
*I typed this as close as I could. Just listened to the song if you have 
 trouble following along with it.  
e---------------------------------------------------------------------- 
B---------------------------------------------------------------------- 
G-------7--7--9--9-9/11--11-9-11--11-12--9-9-9-9-11--11p9p7-9--9-11--9- 
D--0-0--0--0--0--0-0-----0--0-0---0--0---0-0-7-7-7---7------7--7-7---7- 
A--0-0--0--0--0--0-0-----0--0-0---0--0---0-0-7-7-7---7------7--7-7---7- 
D--0-0--0--0--0--0-0-----0--0-0---0--0---0-0-7-7-7---7------7--7-7---7- 
                                |        1st Time 
e-------------------------------|-----------------------------------| 
B-------------------------------|-----------------------------------| 
G--7-7--7-9--9-7--7-7-7--7--0-0-|-12-11--11--11-9--11--11-9-7--7--7-| 
D--0-5--5-5--5-5--5-5-5--5--0-0-|-0--0---0---0--0--0---0--0-0--0--0-| 
A--0-5--5-5--5-5--5-5-5--5--0-0-|-0--0---0---0--0--0---0--0-0--0--0-| 
D--0-5--5-5--5-5--5-5-5--5--0-0-|-0--0---0---0--0--0---0--0-0--0--0-| 
 
            2nd Time  
e--------------------------------------- 
B--------------------------------------- 
G--------------------------------------- 
D--5--0--0---0--5--0--0---0--4-5-4-2-0-- 
A--5--0--0---0--5--0--0---0--4-5-4-2-0-- 
D--5--0--0---0--5--0--0---0--4-5-4-2-0-- 
 
    Strum   |               |   Strum   |   
e-----5-----|---------------|-----0-----|--0-----0---- 
B-----3-----|---------------|-----0-----|----0-----0-- 
G-----2-----|------0--------|-----7-----|------7------ 
D-----0-----|---------------|-----5-----|------------- 
A-----0-----|--4h5---4h5-5--|-----5-----|------------- 
D-----0-----|------------5--|-----5-----|------------- 
 
Pre Chorus    
(# of strums not shown) 
e--------------------------------------------- 
B-------------------------------/20-20-20-20-- 
G--7-7-7-7-7-7-7-7-7-7-7-7-7-7--/19-19-19-19-- 
D--4-4-4-4-5-5-5-5-4-4-4-4-5-5---0--0--0--0--- 
A--4-4-4-4-5-5-5-5-4-4-4-4-5-5---------------- 
D--4-4-4-4-5-5-5-5-4-4-4-4-5-5---------------- 
 
Chorus 
e--------------------------------------------------------------------- 
B--------------------------------------------------------------------- 
G--x--x-x--x--x-x-x-x---x------------------6-7-9p7p6-7-------x--x-x-x- 
D--7--7-7--7--7-7-7-7---7--5----4--0--0-0---------------0-0--7--7-7-7- 
A--5--5-5--4--4-4-4-5p4-4--5--4-4--0--0-0---------------0-0--4--4-4-4- 
D--------------------------5--4-4--0--0-0---------------0-0----------- 
 
 
 
 
e--------------------------------- 
B--------------------------------- 
G--x----x------------------------- 
D--7----7--5----4--0--0-0-4brbp0-- 
A--5p4--4--5--4-4--0--0-0--------- 
D----------5--4-4--0--0-0--------- 
 
      Strum       |Palm Mute|   Strum    | 
e-----------------|---------|------------|------------------------------------ 
B-----------------|---------|------------|------------------------------------ 
G-----------9-----|---------|------7-----|------------------------------------ 
D-----0-----7-----|---------|------5-----|-5--0--0---0--5--0--0---0--4-5-4-2-0 
A-----0-----7-----|--0--0---|------5-----|-5--0--0---0--5--0--0---0--4-5-4-2-0 
D-----0-----7-----|--0--0---|------5-----|-5--0--0---0--5--0--0---0--4-5-4-2-0 
 
 
 
   At approx. 3:40 
e----------------------------- 
B----------------------------- 
G------12-11-------12-11--/7-- 
D--0-0-x--x----0-0-x--x----x-- 
A--0-0-10-9----0-0-10-9---/5-- 
D--0-0---------0-0------------ 
 
 
Key 
b = Bend 
r = Release bend 
h = Hammer 
p = Pull off 
/ = Slide  
 
 

    *****CREDIT: http://RockTabsOnline.com*****